Player Rankings

Player Rankings

RankPlayerAvg RankAuction Value ($)Michael FabianoMarcas GrantGraham BarfieldAdam Rank
1
Joey Bosa DL - LAC
2.00--2------
22.50--1----4
33.00--3------
4
Melvin Ingram DL - LAC
4.00--4------
56.00--6------
6
Muhammad Wilkerson DL - GB IR
6.00--------6
77.50--13----2
88.00--8------
9
Carlos Dunlap DL - CIN
9.00--10----8
10
Everson Griffen DL - MIN
9.00--9------
11
Calais Campbell DL - JAX
9.50--12----7
1210.00--------10
1310.50--7----14
14
Kawann Short DL - CAR
11.00--------11
15
Ezekiel Ansah DL - DET
11.50--18----5
16
Geno Atkins DL - CIN
12.00--------12
1713.50--24----3
1814.00--14------
1914.50--11----18
20
Cameron Heyward DL - PIT
15.00--15----15
21
Jurrell Casey DL - TEN
16.00--------16
2216.00--16------
2317.00--17------
2419.00--------19
2519.00--19------
2619.00--25----13
27
Robert Quinn DL - MIA
20.00--20------
2821.00--21------
29
Mike Daniels DL - GB
21.00--------21
3022.00--------22